WordPress.org

Ready to get started?Download WordPress

Forums

NS Cloner - Site Copier
[resolved] Can't copy site (4 posts)

  1. Jason Klass
    Member
    Posted 6 months ago #

    I made a template site that I wan to clone:

    http://template.mesalabs.com/

    But when I try to clone it, the resulting site is blank:

    http://dialyguard.mesalabs.com/

    It's weird because it works with other sites I made and I didn't do anything differently this time. Here is the detailed log:

    2013-12-20 09:56:07 - RUNNING NS Cloner version: 2.1.4.9

    2013-12-20 09:56:07 - Source Prefix: wp_8_
    2013-12-20 09:56:07 - Target Prefix: wp_18_
    2013-12-20 09:56:07 - -----------------------------------------------------------------------------------------------------------
    2013-12-20 09:56:07 - Cloning source table: wp_8_commentmeta (table #1) to Target table: wp_18_commentmeta
    2013-12-20 09:56:07 - -----------------------------------------------------------------------------------------------------------
    2013-12-20 09:56:08 - -----------------------------------------------------------------------------------------------------------
    2013-12-20 09:56:08 - Cloning source table: wp_8_comments (table #2) to Target table: wp_18_comments
    2013-12-20 09:56:08 - -----------------------------------------------------------------------------------------------------------
    2013-12-20 09:56:08 - -----------------------------------------------------------------------------------------------------------
    2013-12-20 09:56:08 - Cloning source table: wp_8_links (table #3) to Target table: wp_18_links
    2013-12-20 09:56:08 - -----------------------------------------------------------------------------------------------------------
    2013-12-20 09:56:08 - -----------------------------------------------------------------------------------------------------------
    2013-12-20 09:56:08 - Cloning source table: wp_8_options (table #4) to Target table: wp_18_options
    2013-12-20 09:56:08 - -----------------------------------------------------------------------------------------------------------
    2013-12-20 09:56:08 - -----------------------------------------------------------------------------------------------------------
    2013-12-20 09:56:08 - Cloning source table: wp_8_postmeta (table #5) to Target table: wp_18_postmeta
    2013-12-20 09:56:08 - -----------------------------------------------------------------------------------------------------------
    2013-12-20 09:56:11 - -----------------------------------------------------------------------------------------------------------
    2013-12-20 09:56:11 - Cloning source table: wp_8_posts (table #6) to Target table: wp_18_posts
    2013-12-20 09:56:11 - -----------------------------------------------------------------------------------------------------------
    2013-12-20 09:56:11 - -----------------------------------------------------------------------------------------------------------
    2013-12-20 09:56:11 - Cloning source table: wp_8_term_relationships (table #7) to Target table: wp_18_term_relationships
    2013-12-20 09:56:11 - -----------------------------------------------------------------------------------------------------------
    2013-12-20 09:56:11 - -----------------------------------------------------------------------------------------------------------
    2013-12-20 09:56:11 - Cloning source table: wp_8_term_taxonomy (table #8) to Target table: wp_18_term_taxonomy
    2013-12-20 09:56:11 - -----------------------------------------------------------------------------------------------------------
    2013-12-20 09:56:11 - -----------------------------------------------------------------------------------------------------------
    2013-12-20 09:56:11 - Cloning source table: wp_8_terms (table #9) to Target table: wp_18_terms
    2013-12-20 09:56:11 - -----------------------------------------------------------------------------------------------------------
    2013-12-20 09:56:11 - Cloned: 9 tables!
    2013-12-20 09:56:11 - running replace on Target table prefix: wp_18_
    2013-12-20 09:56:11 - Replace: template.mesalabs.com >> With >> dialyguard.mesalabs.com
    2013-12-20 09:56:11 - Replace: template >> With >> Dialysate Meters
    2013-12-20 09:56:11 - Replace: blogs.dir/8/ >> With >> blogs.dir/18/
    2013-12-20 09:56:11 - Replace: /sites/8/ >> With >> /sites/18/
    2013-12-20 09:56:11 - Replace: wp_8_user_roles >> With >> wp_18_user_roles
    2013-12-20 09:56:11 - -----------------------------------------------------------------------------------------------------------
    2013-12-20 09:56:11 - Searching table: wp_18_commentmeta
    2013-12-20 09:56:11 - -----------------------------------------------------------------------------------------------------------
    2013-12-20 09:56:11 - -----------------------------------------------------------------------------------------------------------
    2013-12-20 09:56:11 - Searching table: wp_18_comments
    2013-12-20 09:56:11 - -----------------------------------------------------------------------------------------------------------
    2013-12-20 09:56:11 - -----------------------------------------------------------------------------------------------------------
    2013-12-20 09:56:11 - Searching table: wp_18_links
    2013-12-20 09:56:11 - -----------------------------------------------------------------------------------------------------------
    2013-12-20 09:56:11 - -----------------------------------------------------------------------------------------------------------
    2013-12-20 09:56:11 - Searching table: wp_18_options
    2013-12-20 09:56:11 - -----------------------------------------------------------------------------------------------------------
    2013-12-20 09:56:12 - -----------------------------------------------------------------------------------------------------------
    2013-12-20 09:56:12 - Searching table: wp_18_postmeta
    2013-12-20 09:56:12 - -----------------------------------------------------------------------------------------------------------
    2013-12-20 09:56:12 - -----------------------------------------------------------------------------------------------------------
    2013-12-20 09:56:12 - Searching table: wp_18_posts
    2013-12-20 09:56:12 - -----------------------------------------------------------------------------------------------------------
    2013-12-20 09:56:12 - -----------------------------------------------------------------------------------------------------------
    2013-12-20 09:56:12 - Searching table: wp_18_term_relationships
    2013-12-20 09:56:12 - -----------------------------------------------------------------------------------------------------------
    2013-12-20 09:56:12 - -----------------------------------------------------------------------------------------------------------
    2013-12-20 09:56:12 - Searching table: wp_18_term_taxonomy
    2013-12-20 09:56:12 - -----------------------------------------------------------------------------------------------------------
    2013-12-20 09:56:12 - -----------------------------------------------------------------------------------------------------------
    2013-12-20 09:56:12 - Searching table: wp_18_terms
    2013-12-20 09:56:12 - -----------------------------------------------------------------------------------------------------------
    2013-12-20 09:56:12 - Original basedir returned by wp_upload_dir() = /var/www/vhosts/mesalabs.com/wordpress/wp-content/uploads/sites/8
    2013-12-20 09:56:12 - Original basedir returned by wp_upload_dir() = /var/www/vhosts/mesalabs.com/wordpress/wp-content/uploads/sites/18
    2013-12-20 09:56:12 - Copied: 12 folders and files!
    2013-12-20 09:56:12 - From: /var/www/vhosts/mesalabs.com/wordpress/wp-content/uploads/sites/8
    2013-12-20 09:56:12 - To: /var/www/vhosts/mesalabs.com/wordpress/wp-content/uploads/sites/18
    2013-12-20 09:56:12 - Entire cloning process took: 7.8174068927765 seconds.

    http://wordpress.org/plugins/ns-cloner-site-copier/

  2. Never Settle
    Member
    Plugin Author

    Posted 6 months ago #

    That is a bit strange! Is the template site a clone itself? So that the site that isn't working is a clone of a clone? Sometimes that can introduce some weirdness.

    Looking at the log though everything looks OK. When a site is blank it can sometimes mean that the theme needs to be jogged. Can you try going into the new blank site's admin dashboard, change the theme, change it back to the one you want, and save? That would be the first thing I'd try.

    Otherwise scratching my head to think of what else it could be. Let us know if the theme trick worked!

    Thanks!

  3. Jason Klass
    Member
    Posted 6 months ago #

    I tried switching the theme but can't even get to the dashboard for that site. Same thing. Blank page. So then, I went to the settings and tried to enable 2012 theme but that didn't do anything either.

    The site that doesn't work is not a clone of a clone. I built it from scratch on Multisite.

    The strange thing is I am able to clone two other sites I built exactly the same way:
    http://drycal.mesalabs.com/

    and

    http://torque.mesalabs.com/

    I don't think I did anything differently on the one that won't work so I'm at a loss for what the problem could be. Any other ideas?

  4. Never Settle
    Member
    Plugin Author

    Posted 6 months ago #

    Bizarre! Have you double-checked in your raw db _options table the site and home URL values? It's acting a little like a site that was cloned with domain mapping turned on, but you're not using domain mapping right?

    Maybe check your site and home URLs in the wp_options table for that broken site. With the dashboard not working it sounds like WP can't redirect to it for some reason.

Reply

You must log in to post.

About this Plugin

About this Topic

Tags

No tags yet.